Thursday, October 4, 2012

Tera Mujh se hai pehle ka naata koi guitar tabs



Tera Mujhse hai pehle ka nata koi
e-------------------------5--7-------------|
B--5---------5--------8--------------------|
G-7---4-7---7---7--7-7---------------------|
D------------------------------------------|
A------------------------------------------|
E------------------------------------------|
Yun hu nahi dil lubhata koi
e--7--7-5-----------5----------------------|
B----------8-6-6-8---8---------------------|
G-7----------------------------------------|
D------------------------------------------|
A------------------------------------------|
E------------------------------------------|
Jaane tu yaa jaane na
e-7-7--8--8-10--8-7--5-7-------------------|
B------------------------------------------|
G------------------------------------------|
D------------------------------------------|
A------------------------------------------|
E------------------------------------------|

Jaane tuuuuuu yaaaaaaaa jaane naaaaaaaa
e-7-8--10--12-10--8--8-12-10--8--7-10------|
B------------------------------------------|
G------------------------------------------|
D------------------------------------------|
A------------------------------------------|
E------------------------------------------|

No comments:

Post a Comment